  0
SECTION
  2
HEADER
  9
$ACADVER
  1
AC1015
  9
$ACADMAINTVER
 70
     6
  9
$DWGCODEPAGE
  3
ANSI_1254
  9
$INSBASE
 10
0.0
 20
0.0
 30
0.0
  9
$EXTMIN
 10
0.0
 20
0.0
 30
0.0
  9
$EXTMAX
 10
279.4
 20
215.9
 30
0.0
  9
$LIMMIN
 10
0.0
 20
0.0
  9
$LIMMAX
 10
279.4
 20
215.9
  9
$ORTHOMODE
 70
     0
  9
$REGENMODE
 70
     1
  9
$FILLMODE
 70
     1
  9
$QTEXTMODE
 70
     0
  9
$MIRRTEXT
 70
     1
  9
$LTSCALE
 40
1.0
  9
$ATTMODE
 70
     1
  9
$TEXTSIZE
 40
3.5
  9
$TRACEWID
 40
1.0
  9
$TEXTSTYLE
  7
Standard
  9
$CLAYER
  8
0
  9
$CELTYPE
  6
ByLayer
  9
$CECOLOR
 62
   256
  9
$CELTSCALE
 40
1.0
  9
$DISPSILH
 70
     0
  9
$DIMSCALE
 40
1.0
  9
$DIMASZ
 40
3.5
  9
$DIMEXO
 40
1.0
  9
$DIMDLI
 40
3.75
  9
$DIMRND
 40
0.0
  9
$DIMDLE
 40
0.0
  9
$DIMEXE
 40
1.0
  9
$DIMTP
 40
0.0
  9
$DIMTM
 40
0.0
  9
$DIMTXT
 40
3.5
  9
$DIMCEN
 40
2.5
  9
$DIMTSZ
 40
0.0
  9
$DIMTOL
 70
     0
  9
$DIMLIM
 70
     0
  9
$DIMTIH
 70
     1
  9
$DIMTOH
 70
     1
  9
$DIMSE1
 70
     0
  9
$DIMSE2
 70
     0
  9
$DIMTAD
 70
     1
  9
$DIMZIN
 70
     0
  9
$DIMBLK
  1

  9
$DIMASO
 70
     1
  9
$DIMSHO
 70
     1
  9
$DIMPOST
  1

  9
$DIMAPOST
  1

  9
$DIMALT
 70
     0
  9
$DIMALTD
 70
     3
  9
$DIMALTF
 40
0.0393700787
  9
$DIMLFAC
 40
1.0
  9
$DIMTOFL
 70
     1
  9
$DIMTVP
 40
0.0
  9
$DIMTIX
 70
     0
  9
$DIMSOXD
 70
     0
  9
$DIMSAH
 70
     0
  9
$DIMBLK1
  1

  9
$DIMBLK2
  1

  9
$DIMSTYLE
  2
ISO-25
  9
$DIMCLRD
 70
     0
  9
$DIMCLRE
 70
     0
  9
$DIMCLRT
 70
     0
  9
$DIMTFAC
 40
1.0
  9
$DIMGAP
 40
1.524
  9
$DIMJUST
 70
     0
  9
$DIMSD1
 70
     0
  9
$DIMSD2
 70
     0
  9
$DIMTOLJ
 70
     0
  9
$DIMTZIN
 70
     0
  9
$DIMALTZ
 70
     0
  9
$DIMALTTZ
 70
     0
  9
$DIMUPT
 70
     0
  9
$DIMDEC
 70
     2
  9
$DIMTDEC
 70
     2
  9
$DIMALTU
 70
     2
  9
$DIMALTTD
 70
     3
  9
$DIMTXSTY
  7
Standard
  9
$DIMAUNIT
 70
     0
  9
$DIMADEC
 70
     2
  9
$DIMALTRND
 40
0.0
  9
$DIMAZIN
 70
     0
  9
$DIMDSEP
 70
    44
  9
$DIMATFIT
 70
     3
  9
$DIMFRAC
 70
     0
  9
$DIMLDRBLK
  1

  9
$DIMLUNIT
 70
     2
  9
$DIMLWD
 70
    -2
  9
$DIMLWE
 70
    -2
  9
$DIMTMOVE
 70
     0
  9
$LUNITS
 70
     2
  9
$LUPREC
 70
     2
  9
$SKETCHINC
 40
1.0
  9
$FILLETRAD
 40
10.0
  9
$AUNITS
 70
     0
  9
$AUPREC
 70
     2
  9
$MENU
  1
.
  9
$ELEVATION
 40
0.0
  9
$PELEVATION
 40
0.0
  9
$THICKNESS
 40
0.0
  9
$LIMCHECK
 70
     0
  9
$CHAMFERA
 40
0.0
  9
$CHAMFERB
 40
0.0
  9
$CHAMFERC
 40
0.0
  9
$CHAMFERD
 40
0.0
  9
$SKPOLY
 70
     0
  9
$TDCREATE
 40
2460704.460272292
  9
$TDUCREATE
 40
2460704.335272292
  9
$TDUPDATE
 40
2460704.460272477
  9
$TDUUPDATE
 40
2460704.335272477
  9
$TDINDWG
 40
0.0000000116
  9
$TDUSRTIMER
 40
0.0000000116
  9
$USRTIMER
 70
     1
  9
$ANGBASE
 50
0.0
  9
$ANGDIR
 70
     0
  9
$PDMODE
 70
     0
  9
$PDSIZE
 40
-1.0
  9
$PLINEWID
 40
0.0
  9
$SPLFRAME
 70
     0
  9
$SPLINETYPE
 70
     6
  9
$SPLINESEGS
 70
     8
  9
$HANDSEED
  5
B7
  9
$SURFTAB1
 70
     6
  9
$SURFTAB2
 70
     6
  9
$SURFTYPE
 70
     6
  9
$SURFU
 70
     6
  9
$SURFV
 70
     6
  9
$UCSBASE
  2

  9
$UCSNAME
  2

  9
$UCSORG
 10
0.0
 20
0.0
 30
0.0
  9
$UCSXDIR
 10
1.0
 20
0.0
 30
0.0
  9
$UCSYDIR
 10
0.0
 20
1.0
 30
0.0
  9
$UCSORTHOREF
  2

  9
$UCSORTHOVIEW
 70
     0
  9
$UCSORGTOP
 10
0.0
 20
0.0
 30
0.0
  9
$UCSORGBOTTOM
 10
0.0
 20
0.0
 30
0.0
  9
$UCSORGLEFT
 10
0.0
 20
0.0
 30
0.0
  9
$UCSORGRIGHT
 10
0.0
 20
0.0
 30
0.0
  9
$UCSORGFRONT
 10
0.0
 20
0.0
 30
0.0
  9
$UCSORGBACK
 10
0.0
 20
0.0
 30
0.0
  9
$PUCSBASE
  2

  9
$PUCSNAME
  2

  9
$PUCSORG
 10
0.0
 20
0.0
 30
0.0
  9
$PUCSXDIR
 10
1.0
 20
0.0
 30
0.0
  9
$PUCSYDIR
 10
0.0
 20
1.0
 30
0.0
  9
$PUCSORTHOREF
  2

  9
$PUCSORTHOVIEW
 70
     0
  9
$PUCSORGTOP
 10
0.0
 20
0.0
 30
0.0
  9
$PUCSORGBOTTOM
 10
0.0
 20
0.0
 30
0.0
  9
$PUCSORGLEFT
 10
0.0
 20
0.0
 30
0.0
  9
$PUCSORGRIGHT
 10
0.0
 20
0.0
 30
0.0
  9
$PUCSORGFRONT
 10
0.0
 20
0.0
 30
0.0
  9
$PUCSORGBACK
 10
0.0
 20
0.0
 30
0.0
  9
$USERI1
 70
     0
  9
$USERI2
 70
     0
  9
$USERI3
 70
     0
  9
$USERI4
 70
     0
  9
$USERI5
 70
     0
  9
$USERR1
 40
0.0
  9
$USERR2
 40
0.0
  9
$USERR3
 40
0.0
  9
$USERR4
 40
0.0
  9
$USERR5
 40
0.0
  9
$WORLDVIEW
 70
     1
  9
$SHADEDGE
 70
     3
  9
$SHADEDIF
 70
    70
  9
$TILEMODE
 70
     1
  9
$MAXACTVP
 70
    64
  9
$PINSBASE
 10
0.0
 20
0.0
 30
0.0
  9
$PLIMCHECK
 70
     0
  9
$PEXTMIN
 10
1.0000000000E+20
 20
1.0000000000E+20
 30
1.0000000000E+20
  9
$PEXTMAX
 10
-1.0000000000E+20
 20
-1.0000000000E+20
 30
-1.0000000000E+20
  9
$PLIMMIN
 10
0.0
 20
0.0
  9
$PLIMMAX
 10
420.0
 20
297.0
  9
$UNITMODE
 70
     0
  9
$VISRETAIN
 70
     1
  9
$PLINEGEN
 70
     0
  9
$PSLTSCALE
 70
     1
  9
$TREEDEPTH
 70
  3020
  9
$CMLSTYLE
  2
Standard
  9
$CMLJUST
 70
     0
  9
$CMLSCALE
 40
20.0
  9
$PROXYGRAPHICS
 70
     1
  9
$MEASUREMENT
 70
     1
  9
$CELWEIGHT
370
    -1
  9
$ENDCAPS
280
     0
  9
$JOINSTYLE
280
     0
  9
$LWDISPLAY
290
     1
  9
$INSUNITS
 70
     4
  9
$HYPERLINKBASE
  1

  9
$STYLESHEET
  1

  9
$XEDIT
290
     1
  9
$CEPSNTYPE
380
     0
  9
$PSTYLEMODE
290
     1
  9
$FINGERPRINTGUID
  2
{32a4232e-5b78-4b49-99e9-922464ec4dee}
  9
$VERSIONGUID
  2
{FAEB1C32-E019-11D5-929B-00C0DF256EC4}
  9
$EXTNAMES
290
     1
  9
$PSVPSCALE
 40
0.0
  9
$OLESTARTUP
290
     0
  0
ENDSEC
  0
SECTION
  2
CLASSES
  0
CLASS
  1
ACDBDICTIONARYWDFLT
  2
AcDbDictionaryWithDefault
  3
ObjectDBX Classes
 90
        0
280
     0
281
     0
  0
CLASS
  1
VISUALSTYLE
  2
AcDbVisualStyle
  3
ObjectDBX Classes
 90
     4095
280
     0
281
     0
  0
CLASS
  1
MATERIAL
  2
AcDbMaterial
  3
ObjectDBX Classes
 90
     1153
280
     0
281
     0
  0
CLASS
  1
SCALE
  2
AcDbScale
  3
ObjectDBX Classes
 90
     1153
280
     0
281
     0
  0
CLASS
  1
TABLESTYLE
  2
AcDbTableStyle
  3
ObjectDBX Classes
 90
     4095
280
     0
281
     0
  0
CLASS
  1
MLEADERSTYLE
  2
AcDbMLeaderStyle
  3
ACDB_MLEADERSTYLE_CLASS
 90
     4095
280
     0
281
     0
  0
CLASS
  1
SUN
  2
AcDbSun
  3
SCENEOE
 90
     1153
280
     0
281
     0
  0
CLASS
  1
ACDBPLACEHOLDER
  2
AcDbPlaceHolder
  3
ObjectDBX Classes
 90
        0
280
     0
281
     0
  0
CLASS
  1
LAYOUT
  2
AcDbLayout
  3
ObjectDBX Classes
 90
        0
280
     0
281
     0
  0
ENDSEC
  0
SECTION
  2
TABLES
  0
TABLE
  2
VPORT
  5
8
330
0
100
AcDbSymbolTable
 70
     1
  0
VPORT
  5
29
330
8
100
AcDbSymbolTableRecord
100
AcDbViewportTableRecord
  2
*Active
 70
     0
 10
0.0
 20
0.0
 11
1.0
 21
1.0
 12
139.7
 22
107.95
 13
0.0
 23
0.0
 14
10.0
 24
10.0
 15
10.0
 25
10.0
 16
0.0
 26
0.0
 36
1.0
 17
0.0
 27
0.0
 37
0.0
 40
215.9
 41
1.2941176471
 42
50.0
 43
0.0
 44
0.0
 50
0.0
 51
0.0
 71
     0
 72
  2000
 73
     1
 74
     3
 75
     0
 76
     0
 77
     0
 78
     0
281
     0
 65
     1
110
0.0
120
0.0
130
0.0
111
1.0
121
0.0
131
0.0
112
0.0
122
1.0
132
0.0
 79
     0
146
0.0
  0
ENDTAB
  0
TABLE
  2
LTYPE
  5
5
330
0
100
AcDbSymbolTable
 70
     6
  0
LTYPE
  5
14
330
5
100
AcDbSymbolTableRecord
100
AcDbLinetypeTableRecord
  2
ByBlock
 70
     0
  3

 72
    65
 73
     0
 40
0.0
  0
LTYPE
  5
15
330
5
100
AcDbSymbolTableRecord
100
AcDbLinetypeTableRecord
  2
ByLayer
 70
     0
  3

 72
    65
 73
     0
 40
0.0
  0
LTYPE
  5
16
330
5
100
AcDbSymbolTableRecord
100
AcDbLinetypeTableRecord
  2
Continuous
 70
     0
  3
Solid line
 72
    65
 73
     0
 40
0.0
  0
LTYPE
  5
6E
330
5
100
AcDbSymbolTableRecord
100
AcDbLinetypeTableRecord
  2
HIDDEN
 70
     0
  3
Hidden __ __ __ __ __ __ __ __ __ __ __ __ __ __
 72
    65
 73
     2
 40
1.905
 49
1.27
 74
     0
 49
-0.635
 74
     0
  0
LTYPE
  5
6F
330
5
100
AcDbSymbolTableRecord
100
AcDbLinetypeTableRecord
  2
PHANTOM
 70
     0
  3
Phantom ______  __  __  ______  __  __  ______
 72
    65
 73
     6
 40
12.7
 49
6.35
 74
     0
 49
-1.27
 74
     0
 49
1.27
 74
     0
 49
-1.27
 74
     0
 49
1.27
 74
     0
 49
-1.27
 74
     0
  0
LTYPE
  5
70
330
5
100
AcDbSymbolTableRecord
100
AcDbLinetypeTableRecord
  2
CENTER
 70
     0
  3
Center ____ _ ____ _ ____ _ ____ _ ____ _ ____
 72
    65
 73
     4
 40
10.16
 49
6.35
 74
     0
 49
-1.27
 74
     0
 49
1.27
 74
     0
 49
-1.27
 74
     0
  0
LTYPE
  5
71
330
5
100
AcDbSymbolTableRecord
100
AcDbLinetypeTableRecord
  2
CENTERX2
 70
     0
  3
Center (2x) ________  __  ________  __  _____
 72
    65
 73
     4
 40
20.32
 49
12.7
 74
     0
 49
-2.54
 74
     0
 49
2.54
 74
     0
 49
-2.54
 74
     0
  0
LTYPE
  5
72
330
5
100
AcDbSymbolTableRecord
100
AcDbLinetypeTableRecord
  2
DOT2
 70
     0
  3
Dot (.5x) ........................................
 72
    65
 73
     2
 40
0.635
 49
0.0
 74
     0
 49
-0.635
 74
     0
  0
ENDTAB
  0
TABLE
  2
LAYER
  5
2
330
0
100
AcDbSymbolTable
 70
    17
  0
LAYER
  5
10
330
2
100
AcDbSymbolTableRecord
100
AcDbLayerTableRecord
  2
0
 70
     0
 62
     7
  6
Continuous
370
    -3
390
F
  0
LAYER
  5
73
330
2
100
AcDbSymbolTableRecord
100
AcDbLayerTableRecord
  2
FORMAT
 70
     0
 62
     7
  6
Continuous
370
    -3
390
F
  0
LAYER
  5
74
330
2
100
AcDbSymbolTableRecord
100
AcDbLayerTableRecord
  2
YARDIMCI_GEOMETRI
 70
     0
 62
    -6
  6
Continuous
290
     0
370
    -3
390
F
  0
LAYER
  5
75
330
2
100
AcDbSymbolTableRecord
100
AcDbLayerTableRecord
  2
SAYFA_CERCEVESI
 70
     0
 62
     7
  6
Continuous
370
    25
390
F
  0
LAYER
  5
76
330
2
100
AcDbSymbolTableRecord
100
AcDbLayerTableRecord
  2
ANTET
 70
     0
 62
     7
  6
Continuous
370
    -3
390
F
  0
LAYER
  5
77
330
2
100
AcDbSymbolTableRecord
100
AcDbLayerTableRecord
  2
OLCU
 70
     0
 62
   150
  6
Continuous
370
    -3
390
F
  0
LAYER
  5
78
330
2
100
AcDbSymbolTableRecord
100
AcDbLayerTableRecord
  2
METIN
 70
     0
 62
    96
  6
Continuous
370
    -3
390
F
  0
LAYER
  5
79
330
2
100
AcDbSymbolTableRecord
100
AcDbLayerTableRecord
  2
BALON
 70
     0
 62
     5
  6
Continuous
370
    -3
390
F
  0
LAYER
  5
7A
330
2
100
AcDbSymbolTableRecord
100
AcDbLayerTableRecord
  2
VURGU
 70
     0
 62
     7
  6
Continuous
370
    -3
390
F
  0
LAYER
  5
7B
330
2
100
AcDbSymbolTableRecord
100
AcDbLayerTableRecord
  2
SILIK
 70
     0
 62
     7
  6
Continuous
370
    -3
390
F
  0
LAYER
  5
7C
330
2
100
AcDbSymbolTableRecord
100
AcDbLayerTableRecord
  2
MODEL
 70
     0
 62
     7
  6
Continuous
370
    -3
390
F
  0
LAYER
  5
7D
330
2
100
AcDbSymbolTableRecord
100
AcDbLayerTableRecord
  2
DETAYLANDıRMA
 70
     0
 62
   190
  6
Continuous
370
    -3
390
F
  0
LAYER
  5
7E
330
2
100
AcDbSymbolTableRecord
100
AcDbLayerTableRecord
  2
TOLERANS
 70
     0
 62
   230
  6
Continuous
370
    -3
390
F
  0
LAYER
  5
7F
330
2
100
AcDbSymbolTableRecord
100
AcDbLayerTableRecord
  2
MERKEZ_CIZGILERI
 70
     0
 62
    30
  6
Continuous
370
    -3
390
F
  0
LAYER
  5
80
330
2
100
AcDbSymbolTableRecord
100
AcDbLayerTableRecord
  2
KESIT-DETAY_CIZGILERI
 70
     0
 62
     7
  6
Continuous
370
    -3
390
F
  0
LAYER
  5
81
330
2
100
AcDbSymbolTableRecord
100
AcDbLayerTableRecord
  2
\U+041E\U+0421\U+0415\U+0412\U+042B\U+0415
 70
     0
 62
     7
  6
Continuous
370
    -3
390
F
  0
LAYER
  5
82
330
2
100
AcDbSymbolTableRecord
100
AcDbLayerTableRecord
  2
\U+0412\U+041E\U+0414\U+042F\U+041D\U+042B\U+0415_\U+0417\U+041D\U+0410\U+041A\U+0418
 70
     0
 62
    11
  6
Continuous
370
    -3
390
F
  0
ENDTAB
  0
TABLE
  2
STYLE
  5
3
330
0
100
AcDbSymbolTable
 70
     1
  0
STYLE
  5
11
330
3
100
AcDbSymbolTableRecord
100
AcDbTextStyleTableRecord
  2
Standard
 70
     0
 40
0.0
 41
1.0
 50
0.0
 71
     0
 42
3.5
  3
txt
  4

  0
ENDTAB
  0
TABLE
  2
VIEW
  5
6
330
0
100
AcDbSymbolTable
 70
     0
  0
ENDTAB
  0
TABLE
  2
UCS
  5
7
330
0
100
AcDbSymbolTable
 70
     0
  0
ENDTAB
  0
TABLE
  2
APPID
  5
9
330
0
100
AcDbSymbolTable
 70
     1
  0
APPID
  5
12
330
9
100
AcDbSymbolTableRecord
100
AcDbRegAppTableRecord
  2
ACAD
 70
     0
  0
ENDTAB
  0
TABLE
  2
DIMSTYLE
  5
A
330
0
100
AcDbSymbolTable
 70
     1
100
AcDbDimStyleTable
  0
DIMSTYLE
105
27
330
A
100
AcDbSymbolTableRecord
100
AcDbDimStyleTableRecord
  2
ISO-25
 70
     0
 41
2.5
 42
0.625
 43
3.75
 44
1.25
 73
     0
 74
     0
 77
     1
 78
     8
140
2.5
141
2.5
143
0.0393700787
147
0.625
171
     3
172
     1
178
     0
271
     2
272
     2
274
     3
278
    44
283
     0
284
     8
340
11
  0
ENDTAB
  0
TABLE
  2
BLOCK_RECORD
  5
1
330
0
100
AcDbSymbolTable
 70
     2
  0
BLOCK_RECORD
  5
1F
330
1
100
AcDbSymbolTableRecord
100
AcDbBlockTableRecord
  2
*Model_Space
340
22
  0
BLOCK_RECORD
  5
1B
330
1
100
AcDbSymbolTableRecord
100
AcDbBlockTableRecord
  2
*Paper_Space
340
1E
  0
BLOCK_RECORD
  5
23
330
1
100
AcDbSymbolTableRecord
100
AcDbBlockTableRecord
  2
*Paper_Space0
340
26
  0
BLOCK_RECORD
  5
85
330
1
100
AcDbSymbolTableRecord
100
AcDbBlockTableRecord
  2
SW_CENTERMARKSYMBOL_0
340
0
102
{BLKREFS
331
90
102
}
  0
ENDTAB
  0
ENDSEC
  0
SECTION
  2
BLOCKS
  0
BLOCK
  5
20
330
1F
100
AcDbEntity
  8
0
100
AcDbBlockBegin
  2
*Model_Space
 70
     0
 10
0.0
 20
0.0
 30
0.0
  3
*Model_Space
  1

  0
ENDBLK
  5
21
330
1F
100
AcDbEntity
  8
0
100
AcDbBlockEnd
  0
BLOCK
  5
1C
330
1B
100
AcDbEntity
 67
     1
  8
0
100
AcDbBlockBegin
  2
*Paper_Space
 70
     0
 10
0.0
 20
0.0
 30
0.0
  3
*Paper_Space
  1

  0
ENDBLK
  5
1D
330
1B
100
AcDbEntity
 67
     1
  8
0
100
AcDbBlockEnd
  0
BLOCK
  5
24
330
23
100
AcDbEntity
  8
0
100
AcDbBlockBegin
  2
*Paper_Space0
 70
     0
 10
0.0
 20
0.0
 30
0.0
  3
*Paper_Space0
  1

  0
ENDBLK
  5
25
330
23
100
AcDbEntity
  8
0
100
AcDbBlockEnd
  0
BLOCK
  5
86
330
85
100
AcDbEntity
  8
0
100
AcDbBlockBegin
  2
SW_CENTERMARKSYMBOL_0
 70
     0
 10
0.0
 20
0.0
 30
0.0
  3
SW_CENTERMARKSYMBOL_0
  1

  0
LINE
  5
88
330
85
100
AcDbEntity
  8
FORMAT
 62
     0
100
AcDbLine
 10
0.0
 20
0.0
 30
0.0
 11
0.0
 21
2.5
 31
0.0
  0
LINE
  5
89
330
85
100
AcDbEntity
  8
FORMAT
 62
     0
100
AcDbLine
 10
0.0
 20
0.0
 30
0.0
 11
-2.5
 21
0.0
 31
0.0
  0
LINE
  5
8A
330
85
100
AcDbEntity
  8
FORMAT
 62
     0
100
AcDbLine
 10
0.0
 20
0.0
 30
0.0
 11
0.0
 21
-2.5
 31
0.0
  0
LINE
  5
8B
330
85
100
AcDbEntity
  8
FORMAT
 62
     0
100
AcDbLine
 10
0.0
 20
0.0
 30
0.0
 11
2.5
 21
0.0
 31
0.0
  0
LINE
  5
8C
330
85
100
AcDbEntity
  8
FORMAT
 62
     0
100
AcDbLine
 10
0.0
 20
5.0
 30
0.0
 11
0.0
 21
160.0
 31
0.0
  0
LINE
  5
8D
330
85
100
AcDbEntity
  8
FORMAT
 62
     0
100
AcDbLine
 10
-5.0
 20
0.0
 30
0.0
 11
-160.0
 21
0.0
 31
0.0
  0
LINE
  5
8E
330
85
100
AcDbEntity
  8
FORMAT
 62
     0
100
AcDbLine
 10
0.0
 20
-5.0
 30
0.0
 11
0.0
 21
-160.0
 31
0.0
  0
LINE
  5
8F
330
85
100
AcDbEntity
  8
FORMAT
 62
     0
100
AcDbLine
 10
5.0
 20
0.0
 30
0.0
 11
160.0
 21
0.0
 31
0.0
  0
ENDBLK
  5
87
330
85
100
AcDbEntity
  8
0
100
AcDbBlockEnd
  0
ENDSEC
  0
SECTION
  2
ENTITIES
  0
CIRCLE
  5
83
330
1F
100
AcDbEntity
  8
0
  6
Continuous
 62
     7
370
    25
100
AcDbCircle
 10
128.9229348054
 20
107.9978248159
 30
0.0
 40
157.5
  0
CIRCLE
  5
84
330
1F
100
AcDbEntity
  8
0
  6
Continuous
 62
     7
370
    25
100
AcDbCircle
 10
128.9229348054
 20
107.9978248159
 30
0.0
 40
138.8
  0
INSERT
  5
90
330
1F
100
AcDbEntity
  8
FORMAT
 62
     7
100
AcDbBlockReference
  2
SW_CENTERMARKSYMBOL_0
 10
128.9229348054
 20
107.9978248159
 30
0.0
  0
ARC
  5
91
330
1F
100
AcDbEntity
  8
0
  6
Continuous
 62
     7
370
    25
100
AcDbCircle
 10
123.860392723
 20
251.5528677709
 30
0.0
 40
630.0000000000002
100
AcDbArc
 50
255.9975008025
 51
270.0
  0
ARC
  5
92
330
1F
100
AcDbEntity
  8
0
  6
Continuous
 62
     7
370
    25
100
AcDbCircle
 10
133.9854768878
 20
251.5528677709
 30
0.0
 40
630.0000000000002
100
AcDbArc
 50
270.0
 51
284.0024991975
  0
LINE
  5
93
330
1F
100
AcDbEntity
  8
0
  6
Continuous
 62
     7
370
    25
100
AcDbLine
 10
123.860392723
 20
-378.4471322291
 30
0.0
 11
133.9854768878
 21
-378.4471322291
 31
0.0
  0
LINE
  5
94
330
1F
100
AcDbEntity
  8
0
  6
Continuous
 62
     7
370
    25
100
AcDbLine
 10
-28.5770651946
 20
-186.9391632787
 30
0.0
 11
-28.5770651946
 21
-359.7267911608
 31
0.0
  0
LINE
  5
95
330
1F
100
AcDbEntity
  8
0
  6
Continuous
 62
     7
370
    25
100
AcDbLine
 10
286.4229348054
 20
-359.7267911608
 30
0.0
 11
286.4229348054
 21
-186.9391632787
 31
0.0
  0
LINE
  5
96
330
1F
100
AcDbEntity
  8
0
  6
Continuous
 62
     7
370
    25
100
AcDbLine
 10
128.9229348054
 20
-359.7267911608
 30
0.0
 11
286.4229348054
 21
-359.7267911608
 31
0.0
  0
LINE
  5
97
330
1F
100
AcDbEntity
  8
0
  6
Continuous
 62
     7
370
    25
100
AcDbLine
 10
-28.5770651946
 20
-359.7267911608
 30
0.0
 11
128.9229348054
 21
-359.7267911608
 31
0.0
  0
LINE
  5
98
330
1F
100
AcDbEntity
  8
0
  6
Continuous
 62
     7
370
    25
100
AcDbLine
 10
128.9229348054
 20
-186.9391632787
 30
0.0
 11
286.4229348054
 21
-186.9391632787
 31
0.0
  0
LINE
  5
99
330
1F
100
AcDbEntity
  8
0
  6
Continuous
 62
     7
370
    25
100
AcDbLine
 10
-28.5770651946
 20
-186.9391632787
 30
0.0
 11
128.9229348054
 21
-186.9391632787
 31
0.0
  0
LINE
  5
9A
330
1F
100
AcDbEntity
  8
0
  6
Continuous
 62
     7
370
    25
100
AcDbLine
 10
286.4229348054
 20
353.6832260578
 30
0.0
 11
286.4229348054
 21
526.4708539399
 31
0.0
  0
LINE
  5
9B
330
1F
100
AcDbEntity
  8
0
  6
Continuous
 62
     7
370
    25
100
AcDbLine
 10
-28.5770651946
 20
526.4708539399
 30
0.0
 11
-28.5770651946
 21
353.6832260578
 31
0.0
  0
ARC
  5
9C
330
1F
100
AcDbEntity
  8
0
  6
Continuous
 62
     7
370
    25
100
AcDbCircle
 10
133.9854768878
 20
-84.8088049918
 30
0.0
 40
630.0000000000002
100
AcDbArc
 50
75.9975008025
 51
90.0
  0
ARC
  5
9D
330
1F
100
AcDbEntity
  8
0
  6
Continuous
 62
     7
370
    25
100
AcDbCircle
 10
123.860392723
 20
-84.8088049918
 30
0.0
 40
630.0000000000002
100
AcDbArc
 50
90.0
 51
104.0024991975
  0
LINE
  5
9E
330
1F
100
AcDbEntity
  8
0
  6
Continuous
 62
     7
370
    25
100
AcDbLine
 10
133.9854768878
 20
545.1911950082
 30
0.0
 11
123.860392723
 21
545.1911950082
 31
0.0
  0
LINE
  5
9F
330
1F
100
AcDbEntity
  8
0
  6
Continuous
 62
     7
370
    25
100
AcDbLine
 10
286.4229348054
 20
353.6832260578
 30
0.0
 11
-28.5770651946
 21
353.6832260578
 31
0.0
  0
LINE
  5
A0
330
1F
100
AcDbEntity
  8
0
  6
Continuous
 62
     7
370
    25
100
AcDbLine
 10
286.4229348054
 20
526.4708539399
 30
0.0
 11
-28.5770651946
 21
526.4708539399
 31
0.0
  0
ARC
  5
A1
330
1F
100
AcDbEntity
  8
0
  6
Continuous
 62
     7
370
    25
100
AcDbCircle
 10
1026.9075253508
 20
113.0603668983
 30
0.0
 40
630.0000000000002
100
AcDbArc
 50
165.9975008025
 51
180.0
  0
ARC
  5
A2
330
1F
100
AcDbEntity
  8
0
  6
Continuous
 62
     7
370
    25
100
AcDbCircle
 10
1026.9075253508
 20
102.9352827335
 30
0.0
 40
630.0000000000002
100
AcDbArc
 50
180.0
 51
194.0024991975
  0
LINE
  5
A3
330
1F
100
AcDbEntity
  8
0
  6
Continuous
 62
     7
370
    25
100
AcDbLine
 10
396.9075253508
 20
113.0603668983
 30
0.0
 11
396.9075253508
 21
102.9352827335
 31
0.0
  0
LINE
  5
A4
330
1F
100
AcDbEntity
  8
0
  6
Continuous
 62
     7
370
    25
100
AcDbLine
 10
588.4154943012
 20
265.4978248159
 30
0.0
 11
415.6278664191
 21
265.4978248159
 31
0.0
  0
LINE
  5
A5
330
1F
100
AcDbEntity
  8
0
  6
Continuous
 62
     7
370
    25
100
AcDbLine
 10
415.6278664191
 20
-49.5021751841
 30
0.0
 11
588.4154943012
 21
-49.5021751841
 31
0.0
  0
LINE
  5
A6
330
1F
100
AcDbEntity
  8
0
  6
Continuous
 62
     7
370
    25
100
AcDbLine
 10
415.6278664191
 20
265.4978248159
 30
0.0
 11
415.6278664191
 21
-49.5021751841
 31
0.0
  0
LINE
  5
A7
330
1F
100
AcDbEntity
  8
0
  6
Continuous
 62
     7
370
    25
100
AcDbLine
 10
588.4154943012
 20
265.4978248159
 30
0.0
 11
588.4154943012
 21
-49.5021751841
 31
0.0
  0
ARC
  5
A8
330
1F
100
AcDbEntity
  8
0
  6
Continuous
 62
     7
370
    25
100
AcDbCircle
 10
-757.155755759
 20
102.9352827335
 30
0.0
 40
630.0000000000002
100
AcDbArc
 50
345.9975008025
 51
0.0
  0
ARC
  5
A9
330
1F
100
AcDbEntity
  8
0
  6
Continuous
 62
     7
370
    25
100
AcDbCircle
 10
-757.155755759
 20
113.0603668983
 30
0.0
 40
630.0000000000002
100
AcDbArc
 50
0.0
 51
14.0024991975
  0
LINE
  5
AA
330
1F
100
AcDbEntity
  8
0
  6
Continuous
 62
     7
370
    25
100
AcDbLine
 10
-127.155755759
 20
102.9352827335
 30
0.0
 11
-127.155755759
 21
113.0603668983
 31
0.0
  0
LINE
  5
AB
330
1F
100
AcDbEntity
  8
0
  6
Continuous
 62
     7
370
    25
100
AcDbLine
 10
-318.6637247093
 20
-49.5021751841
 30
0.0
 11
-145.8760968273
 21
-49.5021751841
 31
0.0
  0
LINE
  5
AC
330
1F
100
AcDbEntity
  8
0
  6
Continuous
 62
     7
370
    25
100
AcDbLine
 10
-145.8760968273
 20
265.4978248159
 30
0.0
 11
-318.6637247093
 21
265.4978248159
 31
0.0
  0
LINE
  5
AD
330
1F
100
AcDbEntity
  8
0
  6
Continuous
 62
     7
370
    25
100
AcDbLine
 10
-145.8760968273
 20
-49.5021751841
 30
0.0
 11
-145.8760968273
 21
265.4978248159
 31
0.0
  0
LINE
  5
AE
330
1F
100
AcDbEntity
  8
0
  6
Continuous
 62
     7
370
    25
100
AcDbLine
 10
-318.6637247093
 20
-49.5021751841
 30
0.0
 11
-318.6637247093
 21
265.4978248159
 31
0.0
  0
LINE
  5
AF
330
1F
100
AcDbEntity
  8
0
  6
Continuous
 62
     7
370
    25
100
AcDbLine
 10
398.5196122236
 20
-384.7412407878
 30
0.0
 11
520.6989156042
 21
-455.2738513006
 31
0.0
  0
LINE
  5
B0
330
1F
100
AcDbEntity
  8
0
  6
Continuous
 62
     7
370
    25
100
AcDbLine
 10
678.1861159944
 20
-182.4684596507
 30
0.0
 11
556.0068126138
 21
-111.9358491379
 31
0.0
  0
LWPOLYLINE
  5
B1
330
1F
100
AcDbEntity
  8
0
  6
Continuous
 62
     7
370
    25
100
AcDbPolyline
 90
      138
 70
   128
 43
0.0
 10
477.2632124187
 20
-376.9437228349
 10
482.369115922
 20
-373.860918141
 10
487.4642816311
 20
-370.5141379487
 10
492.5379943332
 20
-366.9104205885
 10
497.579583932
 20
-363.0573447341
 10
502.5784478863
 20
-358.9630134637
 10
507.5240735076
 20
-354.6360372195
 10
512.4060600684
 20
-350.0855156997
 10
517.2141406753
 20
-345.3210187217
 10
521.9382038603
 20
-340.3525660965
 10
526.568314845
 20
-335.1906065571
 10
531.0947364342
 20
-329.8459957845
 10
535.5079494931
 20
-324.3299735781
 10
539.7986729663
 20
-318.6541402182
 10
543.9578833955
 20
-312.8304320704
 10
547.9768338968
 20
-306.8710964833
 10
551.8470725549
 20
-300.7886660322
 10
555.5604601978
 20
-294.5959321625
 10
559.1091875137
 20
-288.3059182899
 10
562.4857914741
 20
-281.931852411
 10
565.6831710283
 20
-275.4871392852
 10
568.6946020375
 20
-268.9853322443
 10
571.5137514157
 20
-262.4401046894
 10
574.1346904479
 20
-255.8652213356
 10
576.5519072587
 20
-249.2745092646
 10
578.7603184036
 20
-242.6818288462
 10
580.7552795597
 20
-236.1010445895
 10
582.5325952928
 20
-229.545995986
 10
584.0885278802
 20
-223.0304684045
 10
585.4198051717
 20
-216.5681641008
 10
586.5236274703
 20
-210.172673401
 10
587.3976734208
 20
-203.8574461213
 10
588.0401048908
 20
-197.6357632827
 10
588.4495708371
 20
-191.5207091807
 10
588.6252101464
 20
-185.5251438689
 10
588.5666534465
 20
-179.6616761143
 10
588.274023883
 20
-173.9426368806
 10
587.7479368605
 20
-168.3800533959
 10
586.9894987482
 20
-162.9856238597
 10
586.0003045531
 20
-157.7706928409
 10
584.782434566
 20
-152.7462274205
 10
583.3384499864
 20
-147.9227941272
 10
581.6713875363
 20
-143.3105367159
 10
579.7847530738
 20
-138.9191548357
 10
577.6825142205
 20
-134.7578836308
 10
575.3690920173
 20
-130.8354743191
 10
572.8493516271
 20
-127.1601757881
 10
570.128592103
 20
-123.7397172479
 10
567.2125352444
 20
-120.5812919756
 10
564.1073135641
 20
-117.6915421888
 10
560.8194573917
 20
-115.0765450761
 10
557.3558811395
 20
-112.7418000168
 10
553.7238687623
 20
-110.6922170163
 10
549.9310584383
 20
-108.9321063792
 10
545.9854265066
 20
-107.4651696455
 10
541.8952706923
 20
-106.2944918061
 10
537.6691926566
 20
-105.4225348145
 10
533.3160799072
 20
-104.8511324098
 10
528.8450871077
 20
-104.5814862602
 10
524.2656168253
 20
-104.6141634356
 10
519.5872997571
 20
-104.9490952156
 10
514.8199744766
 20
-105.5855772333
 10
509.9736667426
 20
-106.5222709572
 10
505.0585684157
 20
-107.7572065058
 10
500.0850160238
 20
-109.2877867906
 10
495.0634690248
 20
-111.1107929774
 10
490.00448781
 20
-113.2223912559
 10
484.9187114953
 20
-115.6181409023
 10
479.8168355473
 20
-118.2930036178
 10
474.7095892902
 20
-121.2413541246
 10
469.6077133422
 20
-124.4569919959
 10
464.5219370275
 20
-127.9331546953
 10
459.4629558126
 20
-131.6625317987
 10
454.4414088137
 20
-135.6372803682
 10
449.4678564218
 20
-139.849041446
 10
444.5527580948
 20
-144.288957633
 10
439.7064503609
 20
-148.9476917167
 10
434.9391250803
 20
-153.815446307
 10
430.2608080122
 20
-158.8819844404
 10
425.6813377298
 20
-164.1366511087
 10
421.2103449303
 20
-169.5683956663
 10
416.8572321808
 20
-175.1657950701
 10
412.6311541451
 20
-180.9170779024
 10
408.5409983309
 20
-186.810149126
 10
404.5953663992
 20
-192.8326155208
 10
400.8025560752
 20
-198.9718117465
 10
397.170543698
 20
-205.2148269781
 10
393.7069674458
 20
-211.5485320578
 10
390.4191112733
 20
-217.9596071055
 10
387.3138895931
 20
-224.4345695309
 10
384.3978327345
 20
-230.9598023876
 10
381.6770732104
 20
-237.5215830095
 10
379.1573328201
 20
-244.1061118703
 10
376.843910617
 20
-250.6995416035
 10
374.7416717637
 20
-257.2880061242
 10
372.8550373012
 20
-263.8576497892
 10
371.1879748511
 20
-270.3946565359
 10
369.7439902714
 20
-276.8852789378
 10
368.5261202844
 20
-283.3158671151
 10
367.5369260893
 20
-289.6728974412
 10
366.7784879769
 20
-295.9430009827
 10
366.2524009544
 20
-302.1129916146
 10
365.959771391
 20
-308.1698937507
 10
365.9012146911
 20
-314.1009696319
 10
366.0768540004
 20
-319.8937461136
 10
366.4863199466
 20
-325.536040897
 10
367.1287514167
 20
-331.0159881486
 10
368.0027973671
 20
-336.3220634543
 10
369.1066196658
 20
-341.4431080555
 10
370.4378969572
 20
-346.3683523157
 10
371.9938295447
 20
-351.08743837
 10
373.7711452778
 20
-355.5904419071
 10
375.7661064339
 20
-359.8678930408
 10
377.9745175788
 20
-363.9107962249
 10
380.3917343896
 20
-367.7106491712
 10
383.0126734218
 20
-371.2594607302
 10
385.8318227999
 20
-374.549767696
 10
388.8432538092
 20
-377.574650502
 10
392.0406333634
 20
-380.3277477727
 10
395.4172373237
 20
-382.8032697019
 10
398.9659646397
 20
-384.9960102285
 10
402.6793522826
 20
-386.9013579852
 10
406.5495909407
 20
-388.515305996
 10
410.568541442
 20
-389.8344601034
 10
414.7277518712
 20
-390.8560461056
 10
419.0184753443
 20
-391.5779155915
 10
423.4316884033
 20
-391.9985504584
 10
427.9581099925
 20
-392.1170661046
 10
432.5882209772
 20
-391.9332132899
 10
437.3122841621
 20
-391.4473786596
 10
442.1203647691
 20
-390.6605839314
 10
447.0023513299
 20
-389.5744837469
 10
451.9479769512
 20
-388.1913621917
 10
456.9468409054
 20
-386.5141279917
 10
461.9884305042
 20
-384.5463083966
 10
467.0621432064
 20
-382.2920417615
 10
472.1573089154
 20
-379.7560688441
 10
477.2632124187
 20
-376.9437228349
  0
LWPOLYLINE
  5
B2
330
1F
100
AcDbEntity
  8
0
  6
Continuous
 62
     7
370
    25
100
AcDbPolyline
 90
       53
 70
   128
 43
0.0
 10
599.4425157993
 20
-447.4763333476
 10
604.5484193026
 20
-444.3935286538
 10
609.6435850116
 20
-441.0467484615
 10
614.7172977138
 20
-437.4430311013
 10
619.7588873126
 20
-433.5899552469
 10
624.7577512668
 20
-429.4956239765
 10
629.7033768881
 20
-425.1686477323
 10
634.5853634489
 20
-420.6181262125
 10
639.3934440559
 20
-415.8536292344
 10
644.1175072408
 20
-410.8851766092
 10
648.7476182255
 20
-405.7232170698
 10
653.2740398147
 20
-400.3786062972
 10
657.6872528737
 20
-394.8625840909
 10
661.9779763468
 20
-389.186750731
 10
666.137186776
 20
-383.3630425832
 10
670.1561372773
 20
-377.4037069961
 10
674.0263759354
 20
-371.3212765449
 10
677.7397635783
 20
-365.1285426753
 10
681.2884908943
 20
-358.8385288026
 10
684.6650948546
 20
-352.4644629237
 10
687.8624744088
 20
-346.019749798
 10
690.8739054181
 20
-339.5179427571
 10
693.6930547962
 20
-332.9727152022
 10
696.3139938284
 20
-326.3978318484
 10
698.7312106392
 20
-319.8071197774
 10
700.9396217841
 20
-313.2144393589
 10
702.9345829403
 20
-306.6336551022
 10
704.7118986733
 20
-300.0786064987
 10
706.2678312608
 20
-293.5630789173
 10
707.5991085522
 20
-287.1007746136
 10
708.7029308509
 20
-280.7052839138
 10
709.5769768013
 20
-274.3900566341
 10
710.2194082714
 20
-268.1683737955
 10
710.6288742177
 20
-262.0533196934
 10
710.8045135269
 20
-256.0577543817
 10
710.745956827
 20
-250.1942866271
 10
710.4533272636
 20
-244.4752473933
 10
709.9272402411
 20
-238.9126639087
 10
709.1688021287
 20
-233.5182343724
 10
708.1796079336
 20
-228.3033033537
 10
706.9617379466
 20
-223.2788379333
 10
705.517753367
 20
-218.4554046399
 10
703.8506909168
 20
-213.8431472287
 10
701.9640564543
 20
-209.4517653485
 10
699.861817601
 20
-205.2904941436
 10
697.5483953979
 20
-201.3680848318
 10
695.0286550077
 20
-197.6927863009
 10
692.3078954835
 20
-194.2723277606
 10
689.3918386249
 20
-191.1139024884
 10
686.2866169447
 20
-188.2241527016
 10
682.9987607722
 20
-185.6091555888
 10
679.53518452
 20
-183.2744105296
 10
678.1861159944
 20
-182.4684596507
  0
LWPOLYLINE
  5
B3
330
1F
100
AcDbEntity
  8
0
  6
Continuous
 62
     7
370
    25
100
AcDbPolyline
 90
       19
 70
   128
 43
0.0
 10
520.6989156042
 20
-455.2738513006
 10
521.1452680202
 20
-455.5286207413
 10
524.8586556631
 20
-457.4339684979
 10
528.7288943212
 20
-459.0479165088
 10
532.7478448225
 20
-460.3670706161
 10
536.9070552517
 20
-461.3886566184
 10
541.1977787249
 20
-462.1105261043
 10
545.6109917838
 20
-462.5311609712
 10
550.1374133731
 20
-462.6496766174
 10
554.7675243578
 20
-462.4658238027
 10
559.4915875427
 20
-461.9799891723
 10
564.2996681496
 20
-461.1931944442
 10
569.1816547104
 20
-460.1070942597
 10
574.1272803317
 20
-458.7239727044
 10
579.126144286
 20
-457.0467385045
 10
584.1677338848
 20
-455.0789189094
 10
589.2414465869
 20
-452.8246522743
 10
594.336612296
 20
-450.2886793569
 10
599.4425157993
 20
-447.4763333476
  0
LWPOLYLINE
  5
B4
330
1F
100
AcDbEntity
  8
0
  6
Continuous
 62
     7
370
    25
100
AcDbPolyline
 90
      129
 70
   128
 43
0.0
 10
477.2632124187
 20
-361.6744096526
 10
482.079029052
 20
-358.757779874
 10
486.8832439611
 20
-355.575140487
 10
491.6642833717
 20
-352.1341587485
 10
496.410629341
 20
-348.443124285
 10
501.1108475057
 20
-344.5109291217
 10
505.7536146288
 20
-340.3470462613
 10
510.3277458774
 20
-335.9615068623
 10
514.8222217689
 20
-331.3648760733
 10
519.226214717
 20
-326.5682275803
 10
523.5291151171
 20
-321.5831169298
 10
527.7205569051
 20
-316.4215536899
 10
531.7904425308
 20
-311.0959725187
 10
535.7289672831
 20
-305.6192032076
 10
539.5266429109
 20
-300.0044397735
 10
543.174320481
 20
-294.2652086735
 10
546.6632124187
 20
-288.4153362179
 10
549.9849136777
 20
-282.4689152619
 10
553.1314219887
 20
-276.4402712543
 10
556.0951571375
 20
-270.3439277267
 10
558.8689792266
 20
-264.1945713045
 10
561.4462058757
 20
-258.0070163261
 10
563.82062832
 20
-251.7961691533
 10
565.9865263679
 20
-245.576992261
 10
567.9386821812
 20
-239.364468191
 10
569.6723928456
 20
-233.173563458
 10
571.1834817002
 20
-227.0191924937
 10
572.4683083998
 20
-220.9161817169
 10
573.5237776841
 20
-214.8792338151
 10
574.3473468353
 20
-208.9228923245
 10
574.9370318031
 20
-203.0615065935
 10
575.2914119847
 20
-197.3091972138
 10
575.4096336474
 20
-191.6798220024
 10
575.2914119847
 20
-186.1869426173
 10
574.9370318031
 20
-180.8437918862
 10
574.3473468353
 20
-175.663241927
 10
573.5237776841
 20
-170.6577731385
 10
572.4683083998
 20
-165.8394441333
 10
571.1834817002
 20
-161.2198626881
 10
569.6723928456
 20
-156.8101577792
 10
567.9386821812
 20
-152.6209527719
 10
565.9865263679
 20
-148.6623398281
 10
563.82062832
 20
-144.9438555931
 10
561.4462058757
 20
-141.4744582211
 10
558.8689792266
 20
-138.2625057942
 10
556.0951571375
 20
-135.3157361872
 10
553.1314219887
 20
-132.6412484262
 10
549.9849136777
 20
-130.2454855864
 10
546.6632124187
 20
-128.1342192704
 10
543.174320481
 20
-126.3125357036
 10
539.5266429109
 20
-124.7848234814
 10
535.7289672831
 20
-123.5547629962
 10
531.7904425308
 20
-122.6253175716
 10
527.7205569051
 20
-121.9987263229
 10
523.5291151171
 20
-121.6764987634
 10
519.226214717
 20
-121.6594111675
 10
514.8222217689
 20
-121.9475047006
 10
510.3277458774
 20
-122.5400853203
 10
505.7536146288
 20
-123.4357254479
 10
501.1108475057
 20
-124.632267408
 10
496.410629341
 20
-126.126828626
 10
491.6642833717
 20
-127.9158085732
 10
486.8832439611
 20
-129.9948974401
 10
482.079029052
 20
-132.3590865196
 10
477.2632124187
 20
-135.0026802731
 10
472.4473957855
 20
-137.9193100517
 10
467.6431808763
 20
-141.1019494388
 10
462.8621414657
 20
-144.5429311773
 10
458.1157954965
 20
-148.2339656408
 10
453.4155773317
 20
-152.166160804
 10
448.7728102087
 20
-156.3300436644
 10
444.19867896
 20
-160.7155830634
 10
439.7042030686
 20
-165.3122138525
 10
435.3002101205
 20
-170.1088623455
 10
430.9973097204
 20
-175.093972996
 10
426.8058679323
 20
-180.2555362358
 10
422.7359823067
 20
-185.5811174071
 10
418.7974575544
 20
-191.0578867182
 10
414.9997819266
 20
-196.6726501522
 10
411.3521043564
 20
-202.4118812523
 10
407.8632124187
 20
-208.2617537079
 10
404.5415111598
 20
-214.2081746639
 10
401.3950028488
 20
-220.2368186715
 10
398.4312677
 20
-226.3331621991
 10
395.6574456108
 20
-232.4825186212
 10
393.0802189617
 20
-238.6700735997
 10
390.7057965175
 20
-244.8809207725
 10
388.5398984696
 20
-251.1000976648
 10
386.5877426563
 20
-257.3126217348
 10
384.8540319919
 20
-263.5035264678
 10
383.3429431372
 20
-269.657897432
 10
382.0581164377
 20
-275.7609082088
 10
381.0026471534
 20
-281.7978561107
 10
380.1790780022
 20
-287.7541976013
 10
379.5893930344
 20
-293.6155833323
 10
379.2350128527
 20
-299.367892712
 10
379.11679119
 20
-304.9972679234
 10
379.2350128527
 20
-310.4901473084
 10
379.5893930344
 20
-315.8332980396
 10
380.1790780022
 20
-321.0138479987
 10
381.0026471534
 20
-326.0193167873
 10
382.0581164377
 20
-330.8376457925
 10
383.3429431372
 20
-335.4572272377
 10
384.8540319919
 20
-339.8669321466
 10
386.5877426563
 20
-344.0561371538
 10
388.5398984696
 20
-348.0147500976
 10
390.7057965175
 20
-351.7332343327
 10
393.0802189617
 20
-355.2026317047
 10
395.6574456108
 20
-358.4145841316
 10
398.4312677
 20
-361.3613537386
 10
401.3950028488
 20
-364.0358414996
 10
404.5415111598
 20
-366.4316043394
 10
407.8632124187
 20
-368.5428706554
 10
411.3521043564
 20
-370.3645542221
 10
414.9997819266
 20
-371.8922664444
 10
418.7974575544
 20
-373.1223269296
 10
422.7359823067
 20
-374.0517723542
 10
426.8058679323
 20
-374.6783636029
 10
430.9973097204
 20
-375.0005911624
 10
435.3002101205
 20
-375.0176787583
 10
439.7042030686
 20
-374.7295852251
 10
444.19867896
 20
-374.1370046054
 10
448.7728102087
 20
-373.2413644778
 10
453.4155773317
 20
-372.0448225178
 10
458.1157954965
 20
-370.5502612997
 10
462.8621414658
 20
-368.7612813525
 10
467.6431808763
 20
-366.6821924856
 10
472.4473957855
 20
-364.3180034061
 10
477.2632124187
 20
-361.6744096526
  0
LWPOLYLINE
  5
B5
330
1F
100
AcDbEntity
  8
0
  6
Continuous
 62
     7
370
    25
100
AcDbPolyline
 90
       27
 70
   128
 43
0.0
 10
574.3082781235
 20
-209.246795972
 10
569.838666924
 20
-212.7302064748
 10
565.1384487592
 20
-216.662401638
 10
560.4956816362
 20
-220.8262844984
 10
555.9215503875
 20
-225.2118238974
 10
551.4270744961
 20
-229.8084546865
 10
547.0230815479
 20
-234.6051031795
 10
542.7201811479
 20
-239.59021383
 10
538.5287393598
 20
-244.7517770698
 10
534.4588537341
 20
-250.0773582411
 10
530.5203289819
 20
-255.5541275522
 10
526.722653354
 20
-261.1688909862
 10
523.0749757839
 20
-266.9081220863
 10
519.5860838462
 20
-272.7579945419
 10
516.2643825872
 20
-278.7044154979
 10
513.1178742763
 20
-284.7330595055
 10
510.1541391274
 20
-290.8294030331
 10
507.3803170383
 20
-296.9787594552
 10
504.8030903892
 20
-303.1663144337
 10
502.4286679449
 20
-309.3771616065
 10
500.2627698971
 20
-315.5963384988
 10
498.3106140838
 20
-321.8088625688
 10
496.5769034194
 20
-327.9997673018
 10
495.0658145647
 20
-334.154138266
 10
493.7809878652
 20
-340.2571490428
 10
492.7255185809
 20
-346.2940969447
 10
491.9410181415
 20
-351.9265347878
  0
ENDSEC
  0
SECTION
  2
OBJECTS
  0
DICTIONARY
  5
C
330
0
100
AcDbDictionary
281
     1
  3
ACAD_GROUP
350
D
  3
ACAD_LAYOUT
350
1A
  3
ACAD_MLINESTYLE
350
17
  3
ACAD_PLOTSETTINGS
350
19
  3
ACAD_PLOTSTYLENAME
350
E
  3
ACAD_SCALELIST
350
47
  3
DWGPROPS
350
B6
  0
DICTIONARY
  5
D
102
{ACAD_REACTORS
330
C
102
}
330
C
100
AcDbDictionary
281
     1
  0
DICTIONARY
  5
1A
102
{ACAD_REACTORS
330
C
102
}
330
C
100
AcDbDictionary
281
     1
  3
Layout1
350
1E
  3
Layout2
350
26
  3
Model
350
22
  0
DICTIONARY
  5
17
102
{ACAD_REACTORS
330
C
102
}
330
C
100
AcDbDictionary
281
     1
  3
Standard
350
18
  0
DICTIONARY
  5
19
102
{ACAD_REACTORS
330
C
102
}
330
C
100
AcDbDictionary
281
     1
  0
ACDBDICTIONARYWDFLT
  5
E
102
{ACAD_REACTORS
330
C
102
}
330
C
100
AcDbDictionary
281
     1
  3
Normal
350
F
100
AcDbDictionaryWithDefault
340
F
  0
DICTIONARY
  5
47
102
{ACAD_REACTORS
330
C
102
}
330
C
100
AcDbDictionary
281
     1
  3
A0
350
48
  3
A1
350
49
  3
A2
350
4A
  3
A3
350
4B
  3
A4
350
4C
  3
A5
350
4D
  3
A6
350
4E
  3
A7
350
4F
  3
A8
350
50
  3
A9
350
51
  3
B0
350
52
  3
B1
350
53
  3
B2
350
54
  3
B3
350
55
  3
B4
350
56
  3
B5
350
57
  3
B6
350
58
  3
B7
350
59
  3
B8
350
5A
  3
B9
350
5B
  3
C0
350
5C
  3
C1
350
5D
  3
C2
350
5E
  3
C3
350
5F
  3
C4
350
60
  3
C5
350
61
  3
C6
350
62
  3
C7
350
63
  3
C8
350
64
  3
C9
350
65
  3
D0
350
66
  3
D1
350
67
  3
D2
350
68
  0
XRECORD
  5
B6
102
{ACAD_REACTORS
330
C
102
}
330
C
100
AcDbXrecord
280
     1
  1
DWGPROPS COOKIE
  2

  3

  4

  6

  7

  8
b.kav
  9

300
=
301
=
302
=
303
=
304
=
305
=
306
=
307
=
308
=
309
=
 40
0.0
 41
2460704.335272292
 42
2460704.335272477
  1

 90
        0
  0
LAYOUT
  5
1E
102
{ACAD_REACTORS
330
1A
102
}
330
1A
100
AcDbPlotSettings
  1

  2
none_device
  4

  6

 40
0.0
 41
0.0
 42
0.0
 43
0.0
 44
0.0
 45
0.0
 46
0.0
 47
0.0
 48
0.0
 49
0.0
140
0.0
141
0.0
142
1.0
143
1.0
 70
   688
 72
     1
 73
     0
 74
     5
  7

 75
    16
147
1.0
148
0.0
149
0.0
100
AcDbLayout
  1
Layout1
 70
     1
 71
     1
 10
0.0
 20
0.0
 11
420.0
 21
297.0
 12
0.0
 22
0.0
 32
0.0
 14
1.0000000000E+20
 24
1.0000000000E+20
 34
1.0000000000E+20
 15
-1.0000000000E+20
 25
-1.0000000000E+20
 35
-1.0000000000E+20
146
0.0
 13
0.0
 23
0.0
 33
0.0
 16
1.0
 26
0.0
 36
0.0
 17
0.0
 27
1.0
 37
0.0
 76
     0
330
1B
  0
LAYOUT
  5
26
102
{ACAD_REACTORS
330
1A
102
}
330
1A
100
AcDbPlotSettings
  1

  2
none_device
  4

  6

 40
0.0
 41
0.0
 42
0.0
 43
0.0
 44
0.0
 45
0.0
 46
0.0
 47
0.0
 48
0.0
 49
0.0
140
0.0
141
0.0
142
1.0
143
1.0
 70
   688
 72
     1
 73
     0
 74
     5
  7

 75
    16
147
1.0
148
0.0
149
0.0
100
AcDbLayout
  1
Layout2
 70
     1
 71
     2
 10
0.0
 20
0.0
 11
0.0
 21
0.0
 12
0.0
 22
0.0
 32
0.0
 14
0.0
 24
0.0
 34
0.0
 15
0.0
 25
0.0
 35
0.0
146
0.0
 13
0.0
 23
0.0
 33
0.0
 16
1.0
 26
0.0
 36
0.0
 17
0.0
 27
1.0
 37
0.0
 76
     0
330
23
  0
LAYOUT
  5
22
102
{ACAD_REACTORS
330
1A
102
}
330
1A
100
AcDbPlotSettings
  1

  2
none_device
  4
Letter_(8.50_x_11.00_Inches)
  6

 40
6.35
 41
6.35
 42
6.35000508
 43
6.35000508
 44
215.9
 45
279.4
 46
0.0
 47
0.0
 48
0.0
 49
0.0
140
0.0
141
0.0
142
1.0
143
1.0
 70
  1712
 72
     1
 73
     0
 74
     0
  7

 75
     0
147
1.0
148
0.0
149
0.0
100
AcDbLayout
  1
Model
 70
     1
 71
     0
 10
0.0
 20
0.0
 11
279.4
 21
215.9
 12
0.0
 22
0.0
 32
0.0
 14
0.0
 24
0.0
 34
0.0
 15
279.4
 25
215.9
 35
0.0
146
0.0
 13
0.0
 23
0.0
 33
0.0
 16
1.0
 26
0.0
 36
0.0
 17
0.0
 27
1.0
 37
0.0
 76
     0
330
1F
331
29
  0
MLINESTYLE
  5
18
102
{ACAD_REACTORS
330
17
102
}
330
17
100
AcDbMlineStyle
  2
Standard
 70
     0
  3

 62
   256
 51
90.0
 52
90.0
 71
     2
 49
0.5
 62
   256
  6
BYLAYER
 49
-0.5
 62
   256
  6
BYLAYER
  0
ACDBPLACEHOLDER
  5
F
102
{ACAD_REACTORS
330
E
102
}
330
E
  0
SCALE
  5
48
102
{ACAD_REACTORS
330
47
102
}
330
47
100
AcDbScale
 70
     0
300
1:1
140
1.0
141
1.0
290
     1
  0
SCALE
  5
49
102
{ACAD_REACTORS
330
47
102
}
330
47
100
AcDbScale
 70
     0
300
1:2
140
1.0
141
2.0
290
     0
  0
SCALE
  5
4A
102
{ACAD_REACTORS
330
47
102
}
330
47
100
AcDbScale
 70
     0
300
1:4
140
1.0
141
4.0
290
     0
  0
SCALE
  5
4B
102
{ACAD_REACTORS
330
47
102
}
330
47
100
AcDbScale
 70
     0
300
1:5
140
1.0
141
5.0
290
     0
  0
SCALE
  5
4C
102
{ACAD_REACTORS
330
47
102
}
330
47
100
AcDbScale
 70
     0
300
1:8
140
1.0
141
8.0
290
     0
  0
SCALE
  5
4D
102
{ACAD_REACTORS
330
47
102
}
330
47
100
AcDbScale
 70
     0
300
1:10
140
1.0
141
10.0
290
     0
  0
SCALE
  5
4E
102
{ACAD_REACTORS
330
47
102
}
330
47
100
AcDbScale
 70
     0
300
1:16
140
1.0
141
16.0
290
     0
  0
SCALE
  5
4F
102
{ACAD_REACTORS
330
47
102
}
330
47
100
AcDbScale
 70
     0
300
1:20
140
1.0
141
20.0
290
     0
  0
SCALE
  5
50
102
{ACAD_REACTORS
330
47
102
}
330
47
100
AcDbScale
 70
     0
300
1:30
140
1.0
141
30.0
290
     0
  0
SCALE
  5
51
102
{ACAD_REACTORS
330
47
102
}
330
47
100
AcDbScale
 70
     0
300
1:40
140
1.0
141
40.0
290
     0
  0
SCALE
  5
52
102
{ACAD_REACTORS
330
47
102
}
330
47
100
AcDbScale
 70
     0
300
1:50
140
1.0
141
50.0
290
     0
  0
SCALE
  5
53
102
{ACAD_REACTORS
330
47
102
}
330
47
100
AcDbScale
 70
     0
300
1:100
140
1.0
141
100.0
290
     0
  0
SCALE
  5
54
102
{ACAD_REACTORS
330
47
102
}
330
47
100
AcDbScale
 70
     0
300
2:1
140
2.0
141
1.0
290
     0
  0
SCALE
  5
55
102
{ACAD_REACTORS
330
47
102
}
330
47
100
AcDbScale
 70
     0
300
4:1
140
4.0
141
1.0
290
     0
  0
SCALE
  5
56
102
{ACAD_REACTORS
330
47
102
}
330
47
100
AcDbScale
 70
     0
300
8:1
140
8.0
141
1.0
290
     0
  0
SCALE
  5
57
102
{ACAD_REACTORS
330
47
102
}
330
47
100
AcDbScale
 70
     0
300
10:1
140
10.0
141
1.0
290
     0
  0
SCALE
  5
58
102
{ACAD_REACTORS
330
47
102
}
330
47
100
AcDbScale
 70
     0
300
100:1
140
100.0
141
1.0
290
     0
  0
SCALE
  5
59
102
{ACAD_REACTORS
330
47
102
}
330
47
100
AcDbScale
 70
     0
300
1/128" = 1'-0"
140
0.0078125
141
12.0
290
     0
  0
SCALE
  5
5A
102
{ACAD_REACTORS
330
47
102
}
330
47
100
AcDbScale
 70
     0
300
1/64" = 1'-0"
140
0.015625
141
12.0
290
     0
  0
SCALE
  5
5B
102
{ACAD_REACTORS
330
47
102
}
330
47
100
AcDbScale
 70
     0
300
1/32" = 1'-0"
140
0.03125
141
12.0
290
     0
  0
SCALE
  5
5C
102
{ACAD_REACTORS
330
47
102
}
330
47
100
AcDbScale
 70
     0
300
1/16" = 1'-0"
140
0.0625
141
12.0
290
     0
  0
SCALE
  5
5D
102
{ACAD_REACTORS
330
47
102
}
330
47
100
AcDbScale
 70
     0
300
3/32" = 1'-0"
140
0.09375
141
12.0
290
     0
  0
SCALE
  5
5E
102
{ACAD_REACTORS
330
47
102
}
330
47
100
AcDbScale
 70
     0
300
1/8" = 1'-0"
140
0.125
141
12.0
290
     0
  0
SCALE
  5
5F
102
{ACAD_REACTORS
330
47
102
}
330
47
100
AcDbScale
 70
     0
300
3/16" = 1'-0"
140
0.1875
141
12.0
290
     0
  0
SCALE
  5
60
102
{ACAD_REACTORS
330
47
102
}
330
47
100
AcDbScale
 70
     0
300
1/4" = 1'-0"
140
0.25
141
12.0
290
     0
  0
SCALE
  5
61
102
{ACAD_REACTORS
330
47
102
}
330
47
100
AcDbScale
 70
     0
300
3/8" = 1'-0"
140
0.375
141
12.0
290
     0
  0
SCALE
  5
62
102
{ACAD_REACTORS
330
47
102
}
330
47
100
AcDbScale
 70
     0
300
1/2" = 1'-0"
140
0.5
141
12.0
290
     0
  0
SCALE
  5
63
102
{ACAD_REACTORS
330
47
102
}
330
47
100
AcDbScale
 70
     0
300
3/4" = 1'-0"
140
0.75
141
12.0
290
     0
  0
SCALE
  5
64
102
{ACAD_REACTORS
330
47
102
}
330
47
100
AcDbScale
 70
     0
300
1" = 1'-0"
140
1.0
141
12.0
290
     0
  0
SCALE
  5
65
102
{ACAD_REACTORS
330
47
102
}
330
47
100
AcDbScale
 70
     0
300
1-1/2" = 1'-0"
140
1.5
141
12.0
290
     0
  0
SCALE
  5
66
102
{ACAD_REACTORS
330
47
102
}
330
47
100
AcDbScale
 70
     0
300
3" = 1'-0"
140
3.0
141
12.0
290
     0
  0
SCALE
  5
67
102
{ACAD_REACTORS
330
47
102
}
330
47
100
AcDbScale
 70
     0
300
6" = 1'-0"
140
6.0
141
12.0
290
     0
  0
SCALE
  5
68
102
{ACAD_REACTORS
330
47
102
}
330
47
100
AcDbScale
 70
     0
300
1'-0" = 1'-0"
140
12.0
141
12.0
290
     0
  0
ENDSEC
  0
EOF
